Whispers In The Dark
Skillet
Skillet Whispers In The Dark
Прислал: -, Добавлено: 18 February 2014 , Просмотров: 2854 (+334)

 
Добавить в избранное

Intro:
Despite the lies that you're making
Your love is mine for the taking 
My love is 
Just waiting
To turn your tears to roses 

Am Cmaj7 Am x2 

Verse 1:
Am                  B 
Despite the lies that you're making
Am               B  
Your love is mine for the taking 
Am        B 
My love is just waiting 
Am               B 
To turn your tears to roses 
Am                         B  
I will be the one that's gonna hold you 
Am                        B 
I will be the one that you run to 
Am        B           Am           B 
My love is a burning, consuming fire 

Am B 

Chorus:   
Am                   F 
No, you'll never be alone 
                         Dm                   C    
When darkness comes I'll light the night with stars 
        B 
Hear my whispers in the dark 
Am                   F 
No, you'll never be alone 
                        Dm             C  
When darkness comes you know I'm never far 
        B 
Hear my whispers in the dark 
 
Am Cmaj7 Am 

Whispers in the dark 

Am Cmaj7 Am 

Verse 2:
Am                    B 
You feel so lonely and ragged
Am                    B 
You lay here broken and naked 
Am       B 
My love is just waiting 
    Am                B 
To clothe you in crimson roses 

Am                     B 
I will be the one that's gonna find you 
Am                     B 
I will be the one that's gonna guide you
Am          B         Am           B 
My love is a burning, consuming fire 

Am B 

Chorus:
Am                   F 
No, you'll never be alone 
                 Dm                   C    
When darkness comes I'll light the night with stars 
        B 
Hear my whispers in the dark 
Am                   F 
No, you'll never be alone 
                Dm             C  
When darkness comes you know I'm never far 
        B 
Hear my whispers in the dark 

F G Am G F 

Am Cmaj7 Am  x2

e|-----------------------------------------------------------------|
B|-----------------------------------------------------------------|
G|-----------------------------------------------------------------|
D|-2-0-2-3-2-0-2-0-2-0-2-3-2-0-2-0-2-0-2-3-2-0-2-0-2-0-2-3-2-0-2-0-|
A|-----------------------------------------------------------------|
E|-----------------------------------------------------------------|

Chorus:
  Am                 F 
No, you'll never be alone 
                 Dm                   C    
When darkness comes I'll light the night with stars 
        B 
Hear my whispers in the dark 
Am                   F 
No, you'll never be alone 
                        Dm             C  
When darkness comes you know I'm never far 
        B                Am 
Hear my whispers in the dark 
                F 
Whispers in the dark
                Dm 
Whispers in the dark
                C B 
Whispers in the dark

e|-----------------------------------------------------------------|
B|-----------------------------------------------------------------|
G|-----------------------------------------------------------------|
D|-2-0-2-3-2-0-2-0-2-0-2-3-2-0-2-0-2-0-2-3-2-0-2-0-2-0-2-3-2-0-2-0-|
A|-----------------------------------------------------------------|
E|-----------------------------------------------------------------|
   ...............................................................

e|-----------------------------------------------------------------|
B|-----------------------------------------------------------------|
G|-----------------------0-----------------------------------------|
D|-2-0-2-3-2-0-2-0-3-2-3---3-2-3-2-2-0---0--------2-0---0----------|
A|-------------------------------------3--3-2-3-2-----3---3-2-3-2--|
E|-----------------------------------------------------------------|

Ещё песни с аккордами исполнителя/группы «Skillet»

 
Последние добавленные подборы