Придорожное кафе
Зинчук Виктор
Зинчук Виктор Придорожное кафе
Добавлено: — , Просмотров: 1098 (+0)

  Добавить в избранное

Пpидopoжнoe кaфe

E--------------------------------
H--------------------------------
G----9-11-12--11-9-7--- 11-9----- } 2 paзa
D-9-------------------9----------
A--------------------------------
E--------------------------------

E------------------------------------
H---10-12-13--12-13-15-13--12-10-12--
G-9----------------------------------
D------------------------------------
A------------------------------------
E------------------------------------

E--------------------------------
H--------------------------------
G----9-11-12--11-9-7---11-9------
D-9-------------------9----------
A--------------------------------
E--------------------------------

E-----------------------------------------
H-12-12-10-10-8-8-7-8-9-8-----------------
G-----------------------------------------
D-----------------------------------------
A-----------------------------------------
E-----------------------------------------

Ещё песни с аккордами исполнителя/группы «Зинчук Виктор»

Внимание! Сайт больше обновляться не будет. Смотрите новую версию сайта на https://guitar-chords.ru
 
 
Последние добавленные подборы