Город Золотой
Аквариум
АквариумГород Золотой
Аквариум Город Золотой
Добавлено: — , Просмотров: 3727 (+10)

 
Добавить в избранное

-----------------|---0------------0-|
--1-0-------01---|-----3-1-0-1-13---|
------2-1-2----2-|------------------|
2----------------|-2----------------|
--0-------0------|---0-------0------|
-----------------|------------------|

-|---1-0-----------|-1-0---------|
-|-------3-1-0-1-3-|-----3-1-3-0-|
-|-2---------------|-------------|
-|---0-------------|-------------|
-|-----------------|-------------|
-|-----------------|---0-------0-|

------------------|---0------------0-|
---1-0-------01---|-----3-1-0-1-13---|
-------2-1-2----2-|------------------|
-2----------------|-2----------------|
---0-------0------|---0-------0------|
------------------|------------------|

|---1-0-----------|-1-0---------|
|-------3-1-0-1-3-|-----3-0-1---|
|-2---------------|-----------2-|
|---0-------------|-------------|
|-----------------|-----------0-|
|-----------------|---0---------|
End of Fill 1

Fill 2
-3-3-----3-3-1-0-1-5-|-1-1----1-1-0---0-3-|
-------2-----------6-|------0-------4---5-|
-----2-------------7-|----0-------------5-|
-----------0---------|--------------------|
---0-----------------|----------3---------|
---------------------|---0----------------|

|-0-------5-10-8-7-5-5-4-|
|-----5-6--------------3-|
|---7------------------4-|
|---0--------------------|
|--------------------7---|
|------------------------|

|---------5-10-8-7-5-5-4-|-5
|-----5-6--------------3-|-5
|---7------------------4-|-5
|---0--------------------|--
|--------------------7---|--
|------------------------|--

     Am                 Am 
Под небом голубым есть город золотой.
       Dm                           E 
С прозрачными воротами и яркою звездой.
       Am                   Am 
А в городе том - сад, все травы, да цветы
    Dm                 E          Am 
Гуляют там животные невиданной красы.
  A7             Dm 
Одно, как желтый огнегривый лев,
    G7          C 
Другое - вол исполненный очей.
    Dm                 E 
С ними золотой орел небесный
   Dm                     E   Am 
Чей так светел взор незабываемый.
А в небе голубом горит одна звезда.
Она твоя, о, ангел мой, она твоя всегда.
Кто любит тот любим, кто светел тот и свят
Пускай ведет звезде тебя дорогой в дивный сад.
Тебя там встретит огнегривый лев
И синий вол, исполненный очей.
С ними золотой орел небесный
Чей так светел взор незабываемый.

Ещё песни с аккордами исполнителя/группы «Аквариум»

Внимание! Сайт больше обновляться не будет. Смотрите новую версию сайта на https://guitar-chords.ru
 
 
Последние добавленные подборы