Без тебя
Ария
Ария Без тебя
Добавлено: — , Просмотров: 3507 (+1)

 
Добавить в избранное

*С кем ты?* (1986)
Без тебя
(В.Кипелов, А.Большаков - М.Пушкина)

Am    F     G      C      H7 
Снова ровно брошен лунный свет
Am      F      G   C    H7 
Дом мой сонный серебром одет.

Am F G C H7 
(***)
Am F G C H7 
(***)

Am           G    Em 
Припев:        Все, все как вчера
Am           G    Em 
Все, все как вчера
Am           G 
Все, все как вчера
C        H7 
Но без тебя.

Лунной кисти не достичь глубин
Эту бездну знаю я один.

Ревность, жалость словно заодно
Птицей скорби падаю на дно.

-------- Табулатура ------------------------------

  Dm          C           Hb          A 

e|-1----------0----------------------------------|
B|---3-----3-----1-----1--3-----------2----------|
G|------2-----------0--------3-----------2-----2-|
D|-0----------------------------------------2----|
A|------------3-----------1-----3--1--0----------|
E|-----------------------------------------------|
  снова      брошен      в окна лунный свет

  Dm            C          Hb C Dm 

e|--1-----------0-------------0-1------|
B| ----3-----3-----1-----1-3------3---3|
G|--------2-----------0-------------2--|
D|--0---------------------------0------|
A|--------------3----------1--3--------|
E|-------------------------------------|
   дом мой     сонный      серебром одет

e|--1--0-------0----------------------------|
B|-------1--------3-------3-2--------2------|
G|---------0--------3---------2---2----2----|
D|--0-----------------3---------2--------2--|
A|-----3-------3--1-------1-0---------------|
E|------------------------------------------|
   M-M-M....

  Лунной кисти не достичь глубин
  Эту бездну знаю я один

Припев:         D           G5 
 Все, как вчера             e|--2----3--
                            B|--3----3--    x - глушится
 D           G5 Hb C         G|--2----0--   (0) - по вкусу
 Все, как вчера             D|--0----0--   С в припеве лучше
                            A|-(0)---x--   брать барре
 D           G5              E|-------3--
 Все, как вчера
            A Gm F A 
 Но  без тебя

 Соло

Гитара 2

e|----3--5-6-5------------||--5--3-----3----------||
B|-6------------5--6--5---||--------6-----6--5----||
G|-----------------------o||o--------------------o||
D|-----------------------o||o--------------------o||
A|------------------------||----------------------||
E|------------------------||----------------------||

Гитара 1

e|----0--1-3-1------------||--1--0-----0----------||
B|-3------------2--3--2---||--------3-----3--2----||
G|-----------------------o||o--------------------o||
D|-0---------------------o||o-0------------------o||
A|----3--1------0--1--0---||-----3--1--3--1--0----||
E|------------------------||----------------------||

Если играется в одну гитару, то играется только партия
гитары (два раза) В две гитары: сначала гитара 1 ведет соло,
гитара 2 играет аккорды перебором; На втором повторе соло
гитара 2 играет то, что выписано сверху, дублирует в терцию,
Закончить песню хорошо арпеджио в D  говоря по-ученому.

Ещё песни с аккордами исполнителя/группы «Ария»

Внимание! Сайт больше обновляться не будет. Смотрите новую версию сайта на https://guitar-chords.ru
 
 
Последние добавленные подборы