Сарабанда в Dm
Гендель Георг Фридрих
Гендель Георг Фридрих Сарабанда в Dm
Добавлено: — , Просмотров: 2788 (+0)

  Добавить в избранное

Сарабанда в Dm

1
E||--1----1------3--|--0----0-----------|--5----5------6--|--3----3--------5--|
B||--3----3------5--|--2----2-----------|--6----6------8--|--5----5--------7--|
G||--2----2---------|--2----2-----------|--5----5---------|--5----5-----------|
D||--0--------------|-------------------|-------3---------|-------------------|
A||-----------------|--0-------1--0-----|-----------------|--3-------3--1--0--|
D||-------0---------|----------------5--|--3--------------|-------------------|

5
--6----6------8---|--5----5----------|--10----10------12--|
--8----8------10--|--6----6------10--|--10----8-----------|
--7----7----------|--7----7----------|--------------------|
-------5----------|--0---------------|--------------------|
------------------|------------------|--------------------|
--5---------------|-------0------10--|--8-----8-----------|

8
--9-----9------------|--1----1------3--|--0----0-----------|--5----5------6--|
--10----10-----------|--3----3------5--|--2----2-----------|--6----6------8--|
--9-----9---0--------|--2----2---------|--2----2-----------|--5----5---------|
---------------3--2--|--0--------------|-------------------|-------3---------|
--0------------------|-----------------|----------1--0-----|-----------------|
---------------------|-------0---------|----------------5--|--3--------------|

12
--3----3--------5--|--6-----6--------8--|--5----------10--9--|
--5----5--------7--|--8-----8-----------|--6------10---------|
--5----5-----------|--7-----5-----------|--5-----------------|
-------------------|-----5-----5--------|-------------8------|
--3-------3--1--0--|--------7-----3--7--|--8-----------------|
-------------------|--5-----------------|--------------------|

15
--10--12--13------12h13h12-10--|--10----10--------|--1--------5--------|
--------------10---------------|--10----10--------|--------3-----8--6--|
--0---------------12-----------|--10----10--------|-----2--------------|
-------------------------------|--0-----0---------|--------3-----0-----|
----------0-------0------------|--------0---------|--------------------|
-------------------------------|--------0---------|--0-----------------|

18
--0-----------------|--5--------8--6--5--|--3--------------5--|
-----0--------------|--------6-----------|-----3--5-----5-----|
--------6-----------|-----5--------------|--5--------4--5-----|
--7--------5--7-----|--------7-----3-----|-----------------4--|
--------0--------7--|--8-----------------|--------3-----------|
--------------------|--------------------|--------------------|

21
--6--------10--8--6--|--5--------------5--|--10---------13--12--10--|
--------8------------|-----8--6--5-----5--|------10--8--------------|
-----7---------0-----|--------7-----7--5--|-----------------0-------|
--5-----8------------|--0-----------------|--8----------------------|
---------------------|--------------------|-------------------------|
---------------------|--------------------|----------8--------------|

24
--9--12------9--0--3--|--1--------5--------|--0-----------------|
---------10-----------|--------3-----8--6--|-----0--------------|
-------------0--------|-----2--------------|--------6-----------|
----------------3--2--|--------3-----0-----|--7--------5--7-----|
--0-------------------|--------------------|--------0--------7--|
----------------------|--0-----------------|--------------------|

27
--5--------8--6--5--|--3--------------5--|--6--------10--8--6--|
--------6-----------|-----3--5-----5-----|--------8------------|
-----5--------------|--5--------4--5-----|-----7---------0-----|
--------7-----3-----|-----------------4--|--5-----8------------|
--8-----------------|--------3-----------|---------------------|
--------------------|--------------------|---------------------|

30
-5--------5--10--9--|--10--12--13------12h13h12-10--|--10------------------0--|
----8--6--5---------|--------------10---------------|--10--11--10-------------|
-------7--5---------|------0-----------12-----------|--10----------12--10-----|
-0-----------8---7--|--8----------------------------|--0----------------------|
--------------------|----------0-------0------------|------------------0------|
--------------------|-------------------------------|-------------------------|

33
--1-----1-----------|--0-----0-----------|--5-----5-----------|
--3-----3-----------|--2-----2-----------|--6-----6-----------|
--2-----2--------0--|--2--0--2-----------|--------------------|
--0-----0--2--3-----|-----------2--------|-----------5--7--8--|
-----4--------------|--------------4--0--|--8--7--8-----------|
--0-----------------|--------------------|--------------------|

36
--0------3-----------|--6-----6-----------|--5-----5-----------|
--8------1-----------|--8-----8-----------|--6-----6-----------|
------0--0--0--------|--0-----0--------5--|--7-----------------|
--10-----2--------2--|-----------7--8-----|-----7-----7--0-----|
---------------3-----|-----9--------------|--------8--------8--|
---------------------|--------------------|--------------------|

39
--10-----12--------10--|--9-----------------|--1-----1-----------|
--10-------------------|--------------------|--3-----3-----------|
----------------0--10--|--9--------0--------|--2-----2-----------|
---------8---7---------|-----8--7-----3--2--|--0-----------------|
------8----------------|--0-----------------|-----0-----0--------|
--8----------------8---|--------------------|--------3-----0--3--|

42
--0-----0-----------|--5-----5-----------|--3-----3-----------|
--2-----2-----------|--6-----6-----------|--5-----5-----------|
--2-----2--0--------|--------------------|--------------------|
-----2--------3--2--|--3-----------------|-----------0--2--3--|
--0-----------------|-----3--0--3-----0--|--3--2--3-----------|
--------------------|--------------3-----|--------------------|

45
--6-----6-----------|----------------10--9--|--10--12--13------12h13h12-10--|
--8-----8-----------|--10--------10---------|--------------10---------------|
--0-----------------|--10-------------------|------------------12-----------|
-----0-----0--------|--0------0-------------|-------------------------------|
--------------------|------7-------------0--|------10--0-------0------------|
--------8-----5--8--|------------10--8------|--8----------------------------|

48
--10----------------||
--10----------------||
--10----------------||
--0-----------------||
------0-----0-------||
---------3-----0----||

Ещё песни с аккордами исполнителя/группы «Гендель Георг Фридрих»

Внимание! Сайт больше обновляться не будет. Смотрите новую версию сайта на https://guitar-chords.ru
 
 
Последние добавленные подборы