Все идет по плану
Гражданская оборона
Гражданская оборона Все идет по плану
Добавлено: — , Просмотров: 2831 (+3)

 
Добавить в избранное

Настройка обычная.

Bass
|-----------------------------------------------------------------
|-----------------------------------------------------------------
|----------------------------3-3-3-3------------------------------
|-------5-5-5-5----1-1-1------------------3-3-3-3-----------------

Riff (Distortion on)
|-------------------------------------------------------------
|-------------------------------------------------------------
|-----------------------5-5-5---------------------------------
|-----------------------3-3-3---------------------------------
|-----7-7-7----1-1-1--------------3-3-3-----------------------
|-----5-5-5----3-3-3--------------5-5-5-----------------------

И так всю песню, если нет электрогитары,
то играйте обычными аккордами Am F C E ...
Если всё зделаете правильно, то получится прямо как у Летова :-)

 Am      F       C          E 
Границы ключ переломлен пополам
     Am      F         C    E 
А наш батюшка Ленин совсем усох
       Am         F            C       E 
Он разложился на плесень и на липовый мед
        Am         F      C        E 
А перестройка все идет и идет по плану
       Am          F       C     E 
И вся грязь превратилась в голый лед
   Am          F           C          E 
И все идет по плану
 Am         F           C          E 
Все идет по плану

А моя судьба захотела на покой
Я обещал ей не участвовать в военной игре
Но на фуражке на моей серп и молот, и звезда
Как это трогательно: серп и молот, и звезда
Лихой фонарь ожидания мотается
И все идет по плану
Все идет по плану

А моей женой накормили толпу
Мировым кулаком растоптали ей грудь
Всенародной свободой разорвали ей плоть
Так закопайте ее во Христе
Ведь все идет по плану
Все идет по плану

Лишь один дедушка Ленин хороший был вождь
А все другие остальные такое дерьмо
А все другие враги и такие мудаки
Над родною над отчизной бесноватый снег шел
Я купил журнал "Корея", там тоже хорошо
Там товарищ Ким Ир Сен, там то же, что у нас
Я уверен, что у них тоже самое
И все идет по плану
Все идет по плану

А при коммунизме все будет заебись
Он наступит скоро, надо только подождать
Там все будет бесплатно, там все будет в кайф
Там, наверное, ваще не надо будет умирать
Я проснулся среди ночи и понял,
Что все идет по плану
Все идет по плану
Все идет по плану

Чуваки, извините меня кривого балбеса, там кароче в басухе
в конце вместо 3333 играется шестая струна не прижатая...,
а на электро играется вместо последнего квинта (третий лад на
шестой струне и 5 лад на 5-ой) играется нулевой лад шестой
струны и второй лад пятой.., кароче играйте наздаровье....

Ещё песни с аккордами исполнителя/группы «Гражданская оборона»

Внимание! Сайт больше обновляться не будет. Смотрите новую версию сайта на https://guitar-chords.ru
 
 
Последние добавленные подборы