Полет кондора
Зинчук Виктор
Зинчук Виктор Полет кондора
Добавлено: — , Просмотров: 2781 (+0)

  Добавить в избранное

Полет кондора

1|------------------------------0-|-5----3----0----5----3----0-|---0-----------------------------|
2|------------0--1--0--1--3-----|-------------------------------|------3----1----3----1-----1---|
3|------3-2--3-------------------|-------------------------------|--------------------------2----2|
4|--4-----------------------------|-------------------------------|----------------------------------|
5|------------------------------- -|-------------------------------|----------------------------------|
6|---------------------------------|-------------------------------|----------------------------------|
2 раза
1|--0-5-|-4-5-|4-5|-4-5-|--7-8-7-5--8-5----|----5--------|--
2|-------|------|----|------|------------------8-|--8---8--5--|---
3|-------|------|----|------|---------------------|-------------|--
4|-------|------|----|------|---------------------|-------------|--
5|-------|------|----|------|---------------------|-------------|--
6|-------|------|----|------|---------------------|-------------|--
2 раза

Ещё песни с аккордами исполнителя/группы «Зинчук Виктор»

Внимание! Сайт больше обновляться не будет. Смотрите новую версию сайта на https://guitar-chords.ru
 
 
Последние добавленные подборы