Березы
ЛЮБЭ
ЛЮБЭ Березы
Добавлено: — , Просмотров: 1501 (+1)

 
Добавить в избранное

Проигрыш:          Dm 
1|-------1-0-1-3-1-0---0-1-3-1-0---0-1-3-1-0---------0-1---3----5-|
2|------3------------3-----------3-----------3--------------------|
3|-----2----------------------------------------------------------|
4|----0-----------------------------------------------------------|
5|----------------------------------------------------------------|
6|----------------------------------------------------------------|
От чего так в России... дальше играть начиная с Gm 

Куплет играть так: бас, 3, 2, 1, 2, 3
Припев играть так: бас, 3, 2+1

Dm          Gm    C       F   Dm 
(1)
        От чего так в России берёзы шумят?
        Gm       C       F   Dm 
От чего белоствольные всё понимают?
   Gm          A             B   Gm 
У дорог, прислонившись по ветру, стоят
     Dm        A       Dm (проигрыш)
И листву так печально кидают

(2)
        Я пойду по дороге - простору я рад
Может это лишь всё, что я в жизни узнаю
От чего так печальные листья летят
Под рубахою душу лаская

Dm Am Gm     C        F     Dm 
Припев:        А на сердце опять горячо горячо
   Gm      A         Dm 
И опять и опять без ответа
Dm Am Gm       C      F         Dm 
А листочек с берёзки упал на плечо
        Gm    A        Dm (проигрыш)
Он как и я оторвался от веток

(3)
        Посидим на дорожку, родная, с тобой
Ты пойми я вернусь - не печалься, не стоит
И старуха махнёт на прощанье рукой
И за мною калитку закроет

(4)
        От чего так в России берёзы шумят?
От чего хорошо так гармошка играет?
Пальцы ветром по кнопочкам враз пролетят
А последнее ввек западает

Припев } x2

Проигрыш в конце песни:
      Dm 
1|-------1-0-1-3-1-0---0-1-3-1-0---0-1-3-1-0-1-0---0----------|
2|------3------------3-----------3---------------3---3--1-----|
3|-----2------------------------------------------------------|
4|----0-------------------------------------------------------|
5|------------------------------------------------------------|
6|------------------------------------------------------------|

1|------1-0-1-3-1-0---0-1-3-1-0---0-1-3-1-0-1-0---0----------1-|
2|-----3------------3-----------3---------------3---3--1----3--|
3|----2----------------------------------------------------2---|
4|---0----------------------------------------------------0----|
5|-------------------------------------------------------------|
6|-------------------------------------------------------------|

Ещё песни с аккордами исполнителя/группы «ЛЮБЭ»

Внимание! Сайт больше обновляться не будет. Смотрите новую версию сайта на https://guitar-chords.ru
 
 
Последние добавленные подборы