Медляк
Мальчишник
Мальчишник Медляк
Добавлено: — , Просмотров: 3268 (+0)

  Добавить в избранное

Кегли
Медляк

1|---------------------5--4-4-----
2|---2^3-2-5--5-----5-----------
3|---2------------2-----------2---      Играть 1, 3, 4, 5 разы
4|---2-----------------------------
5|---0----------------0------------
6|----------------------------------

1|---------------------5-7--5-4-5-4--
2|---2^3-2-5--5-----5----------------
3|---2------------2--------------------     Играть 2, 6 разы
4|---2----------------------------------
5|---0----------------0----------------
6|--------------------------------------

Густая тёмная ночь и тёплый ветер в окно
И ты давно уже спишь, закрыв руками лицо
Наверно, пряча в ладонях от меня свои сны,
Но я смотрю на тебя, и губы шепчут «прости».
Прости меня за цветы, которых я не дарил,
Прости меня за то, что я всю ночь не звонил.
Прости меня, что мечта так и останется мечтой.
Прости меня за то, что я остался с тобой.

Припев:        Прости меня за пустоту моих глаз, прости меня, как ты прощала не раз.
Прости меня, если можешь простить, прости меня за то, что я хотел с тобою быть.

Я столько раз уходил, чтобы вернуться опять
И ты прощала меня, будто привыкла терять.
Я столько раз говорил, что ты мне не нужна
И ты не плакала даже, а просто долго ждала.
Я возвращался, чтоб увидеть красоту твоих глаз,
В безумном омуте которых, я тонул не раз
И ты охотно отдавалась теплоте моих рук
И мы с тобой не замечали вечный времени стук.

Припев

Тебе снится вода, она бежит по рукам
Мне не хочется верить, но это к слезам.
Ты не можешь проснуться, ты не скажешь мне «стой»
И я тихо уйду, но останусь с тобой.
Всему приходит конец, исчезают мечты
И кто-то будет со мной, но это будешь не ты.
Всё будет только так как и должно было быть
И я тебя прошу  забыть и простить.

Припев } Несколько раз

Прости меня } 4 раза

Прости } 2 раза

Ещё песни с аккордами исполнителя/группы «Мальчишник»

Внимание! Сайт больше обновляться не будет. Смотрите новую версию сайта на https://guitar-chords.ru
 
 
Последние добавленные подборы