Wasting The Dawn
69 Eyes
69 Eyes Wasting The Dawn
Добавлено: 18 May 2009 , Просмотров: 2064 (+0)

 
Добавить в избранное

Wasting The Dawn
69 Eyes    

INTRO:

|------0-------0-4---|
|----2---2-4-2-------|
|--------------------|    x4
|--------------------|
|--4-----------------|
|--------------------|

C#m  |  E  |  G#m  |  A E  |  C#m  |  E  |  G#m  |  A E  |  


В течение всех версов (verse) это маленькое арпеджио играется все время:

C#m            E             A             E 
|-----------------------------------------------------------|
|-----------------------------------------------------------|
|------6-------6-----1-------1-----2-------2-----1-------1--|
|----6-------6-----2-------2-----2-------2-----2-------2----|
|--4-------4-------------------0-------0--------------------|
|----------------0-------0-------------------0-------0------|


VERSE 1:

C#m     E 
Been runnin' away
   A       E   C#m 
so long from the day
   E          A 
Into the strange night of stone
   E   C#m 
To fade away
     E 
As the light is gently
A              E   C#m 
Bleedin' out of my soul
     E 
Penetratin' the evening
     A 
As I ride
   E             
On this endless road



BRIDGE:

G#m    E              G#m 
But you can't turn back the time
      A            B 
It always gonna wait on the line


CHORUS:

C#m         E          G#m 
Some may wish never to be born
 A   E          C#m 
Wastin' the dawn
        E                G#m 
Like a rose growin' from the Christ's thorn
A   B           C#m 
Wastin' the dawn


Verse 2 (Те же аккорды, что и в Verse 1):
C#m        E 
Been waitin' for you for so long
 A       E   C#m 
Little bird of prey
   E          A 
To fly me higher
   E   C#m 
To the brighter day
           E 
Where the lizard lingers long
A      E   C#m 
Under the sun
    E 
Forgetting the night
    A 
Darkest July
    E     
Paris '71


RIDGE

CHORUS 2X


Solo:

|-----------------------------------------|
|-----------------------------------------|
|------1----------------------------------|
|-1------4-2-4---2-1-2--1-----------------|
|-----------------------------------------|
|-----------------------------------------|

|-----------------------------------------|
|-----------------------------------------|
|------1--------------1-------------------|
|--------4-2-4---2-4-----1----------------|
|-----------------------------------------|
|-----------------------------------------|

|-----------------------------------------|
|-----------------------------------------|
|------1----------------------------------|
|--------4-2-4---2-1-2--1-----------------|
|-----------------------------------------|
|-----------------------------------------|

|-----------------------------------------|
|------------------0---2-4h5p4-0-2--------|
|------1---------1------------------------|
|--------4-2-4----------------------------|
|-----------------------------------------|
|-----------------------------------------|


Chorus 2X

(Intro on the background)

C#m/A  |  C#m/E  |  C#m  |  2X 



Chorus 2X,
за исключением последнего, последнюю строчку которого нужно заменить на:
A         B         C#m 
We're all gonna waste the dawn

Ещё песни с аккордами исполнителя/группы «69 Eyes»

Внимание! Сайт больше обновляться не будет. Смотрите новую версию сайта на https://guitar-chords.ru
 
 
Последние добавленные подборы