Seal My Fate
Belly
Belly Seal My Fate
Добавлено: — , Просмотров: 1358 (+0)

 
Добавить в избранное

Seal My Fate

e---5---5-5---5-5-5-------4---4-4---4-4-4---------------
b---2---2-2---2-2-2-------2---2-2---2-2-2---------------
g---2---2-2---2-2-2-------2---2-2---2-2-2---------------
d---2---2-2---2-2-2-------2---2-2---2-2-2---------------
a-------------------------------------------------------
e-------------------------------------------------------

e---0-----0---0-0-0-------0-----0---0-0-0---------------
b---0h2---2---2-2-2-------0h2---2---2-2-2---------------
g---2-----2---2-2-2-------2-----2---2-2-2---------------
d---2-----2---2-2-2-------2-----2---2-2-2---------------
a-------------------------------------------------------
e-------------------------------------------------------

e---5---5-5---5-5-5-------4---4-4---4-4-4---------------
b---2---2-2---2-2-2-------2---2-2---2-2-2---------------
g---2---2-2---2-2-2-------2---2-2---2-2-2---------------
d---2---2-2---2-2-2-------2---2-2---2-2-2---------------
a-------------------------------------------------------
e-------------------------------------------------------

e---0-----0---0-0-0-------0-----0---0-0-0---------------
b---0h2---2---2-2-2-------0h2---2---2-2-2---------------
g---2-----2---2-2-2-------2-----2---2-2-2---------------
d---2-----2---2-2-2-------2-----2---2-2-2---------------
a-------------------------------------------------------
e-------------------------------------------------------

e---7---7-7---7-7-9---7-7-9-----------------------------
b---7---7-7---7-7-7---7-7-7-----------------------------
g---7---7-7---7-7-7---7-7-7-----------------------------
d-------------------------------------------------------
a-------------------------------------------------------
e-------------------------------------------------------

e---7-7-7-7---7-9---7-7-9---7-7-9---7-7-----------------
b---7-7-7-7---7-7---7-7-7---7-7-7---7-7-0-2--2-2--2-2-2-
g---7-7-7-7---7-7---7-7-7---7-7-7---7-7-0-2--2-2--2-2-2-
d---------------------------------------0-2--2-2--2-2-2-
a-------------------------------------------------------
e-------------------------------------------------------

e---7---4-----------------------------------------------
b---7---5---0-0-0---2---2-2---2-2-----------------------
g---7---4---0-0-0---2---2-2---2-2-----------------------
d-----------0-0-0---2---2-2---2-2-----------------------
a-------------------------------------------------------
e-------------------------------------------------------

e---7---4-----------------------------------------------
g---7---4---0-0-0---------------------------------------
d-----------0-0-0---------------------------------------
a-------------------------------------------------------
e-------------------------------------------------------
A 
untame my brain
give me a name
        D 
hear my   faith
      A 
seal my fate
A 
unholy and dirty words i gathered to me
                                         D 
thinking the point was keep what's mine for me
            A 
while he's laughing
        D 
hear my   faith
      A 
seal my fate
-----------------------------------------------
-----------------------------------------------
         E                         A 
and when you breathe, you breathe for two
           E 
and if you think you've finally found the perfect light
            A 
i hope it's   true
A 
unholy and dirty words i gathered to me
                                         D 
thinking the point was keep what's mine for me
             A 
(while he's laughing)
A 
on every track i fractured every back
                                 D 
thinking the point was step on every crack
           A 
(and he's laughing)
        D 
hear my   faith
      A 
seal my fate
        D 
hear my   faith
      A 
seal my fate
          E                        A 
and when you breathe, you breathe for two
           E 
and if you think you've finally found the perfect light
            A 
i hope it's   true
D 
you say you saw him laughing
            A 
i hope it's   true
D 
i'd like to see it happen
            A 
i hope it's   true
D 
cause i can feel it
            A 
i hope it's   true

Ещё песни с аккордами исполнителя/группы «Belly»

Внимание! Сайт больше обновляться не будет. Смотрите новую версию сайта на https://guitar-chords.ru
 
 
Последние добавленные подборы