Sexy S
Belly
Belly Sexy S
Добавлено: — , Просмотров: 1274 (+0)

 
Добавить в избранное

'gepetto - ep'
Sexy S

    Bb   C*   D* 
e-------------------
b---3----5----7-----
g---3----5----7-----
d---3----5----7-----
a-------------------
e-------------------

A    Bb 
this thing
                A 
it's so hard to load
            Bb 
and i can't aim (and i can't aim)
        A 
i can't aim
Bb               A          Bb 
but i can turn this - into gold
A      Bb           C*        D* 
on the wings of the angel who left you here
E 
sadie, sadie
D                        A    G C 
you got a bonfire in you hair
        D 
must be heaven in there
E 
sadie, sadie
D                     A    G C 
you got beach bonfire hair
        D             E 
and it turns a crazy red
                 D 
when i touch you there
                 A     G C D 
when i touch you there
E                  D 
let the gods turn away
                   A   G C DC DC Bb 
let the gods turn away
A    Bb 
this wave
                A 
it's so hard to hold
            Bb 
and i can't swim (i can't swim)
            A 
and i can't swim
Bb               A          Bb 
but i can turn this - into gold
A       Bb       C*          D* 
hit the water in slo-mo like angels in...
e-----------------|-------------------|---------------------------------
b-----------------|-------------------|---------------------------------
g-----------------|-------------------|---------------------------------
d--9---9-11-9-7-6-|-7-9-7--6-7--6-4-2-|--4h6-4-2-0----------------------
a-----------------|-------------------|------------2----2s5--5s2--
e-----------------|-------------------|---------------------------------

e------------|-----------------------|----------------------------------
b------------|-----------------------|----------------------------------
g------------|-----------------------|----------------------------------
d--9-11-9s14-|-9-11-12--11-9--11-9-7-|-7h9p7-5---5s9---11s9s16s14-------
a------------|-----------------------|----------------------------------
e------------|-----------------------|----------------------------------
E 
sadie, sadie
D                        A    G C 
you got a bonfire in you hair
        D 
must be heaven in there
E 
sadie, sadie
D                     A    G C 
you got beach bonfire hair
        D             E 
and it turns a crazy red
                 D 
when i touch you there
                 A     G C D 
when i touch you there
E                  D 
let the gods turn away
                   A   G C D 
let the gods turn away
-----------
E D A G C D 
E D A G C D 
C D 
C Bb A 
-----------

Ещё песни с аккордами исполнителя/группы «Belly»

Внимание! Сайт больше обновляться не будет. Смотрите новую версию сайта на https://guitar-chords.ru
 
 
Последние добавленные подборы