Любовь - это война
Ber-Linn
Ber-LinnЛюбовь - это война Прислать видеоурок
Ber-Linn Любовь - это война
Добавлено: — , Просмотров: 1230 (+0)

 
Добавить в избранное

Любовь - это война

Вступление:         Em                         C 
E||--3--3--------------------|--------------------------|
H||--------------------------|--------------------------|
G||--------4--4--5--5--------|--7--7--------------------|
D||--------------------5--5--|--------5--5--7--7--4--4--|
A||--------------------------|--------------------------| \
E||--------------------------|--------------------------|  \
                                                            } 3 раза
   G                          D                            / 
|--3--3--------------------|----------------------------| /
|--------------------------|----------------------------|
|--------4--4--5--5--------|--7--7----------------------|
|--------------------5--5--|--------5--5--7-------------|
|--------------------------|----------------------------|
|--------------------------|----------------------------|

Em       C        G         D           Em C G  D 
Книги остались открытыми на столе
Хайдеггер точно будет на моей стороне
Ты будешь смеяться, но я до невозможности прав

Em C G D           Em C G D 
Любовь это война, любовь это война
Любовь это война, любовь это

Проигрыш = вступление

В шесть выхожу босиком на утренний снег
Тебя поимеет последняя из омег
Завтра узнаю то, что хотел знать вчера
Сигарета погасла, я понял:

Припев
Проигрыш

Бридж:        C D Am B C 

Прохожий одетый в кожу сказал: "Привет"
По радио всю ночь крутили сплошную попсу
Пена в утреннем кофе так похожа на яд
Пальцы сохранили ощущенья тебя,
Пальцы сохранили ощущение тебя,

Припев
Кода = вступление

Ещё песни с аккордами исполнителя/группы «Ber-Linn»

Внимание! Сайт больше обновляться не будет. Смотрите новую версию сайта на https://guitar-chords.ru
 
 
Последние добавленные подборы