Снова ночь
Ber-Linn
Ber-Linn Снова ночь
Добавлено: — , Просмотров: 1764 (+2)

 
Добавить в избранное

Снова ночь

Вступление:         A                          A        E 
G||--6--6--6--6--6--6--6--6--|--6--6--6--1--1--1--1--1--|
D||--7--7--7--7--7--7--7--7--|--7--7--7--2--2--2--2--2--|
A||--7--7--7--7--7--7--7--7--|--7--7--7--2--2--2--2--2--|
E||--5--5--5--5--5--5--5--5--|--5--5--5--0--0--0--0--0--|

A    C#  F#m       D 
И снова ночь и снова на метро
A    C#  F#m       D 
Пусть эскалатор идет к центру земли
A    C#  F#m       D 
В последний поезд ты садишься но
A    C#  F#m       D 
На пересадку опоздал уже

Проигрыш (он же рифф второго куплета):
D||------------------------|------------------------|
A||--0--5--4----0--5--4----|--0--5--4----0--5--4----|
E||------------------------|------------------------|

В одном кармане есть еще двадцак
В другом кармане зажигалка
Твоя сестра сказала "ты совсем"
Но у нее проблемы с парнем

Проигрыш:    |--------------------||-------------------------------|
|--------------------||---------10--10--------10--10--|
|--------------------||*----------------6--6----------|
|--------------------||*--7--7------------------------|
|--------------4--7--||-------------------------------|
|--------------------||-------------------------------|

|------------------------------|------------------------------|
|--7--7--10--10--------10--10--|--------10--10--------10--10--|
|----------------7--7----------|----------------6--6---------*|
|------------------------------|--7--7-----------------------*|
|------------------------------|------------------------------|
|------------------------------|------------------------------|

|--------------------------10---|
|--7--7--10--10--------10-------|
|----------------7--7----------*|
|------------------------------*|
|-------------------------------|
|-------------------------------|

Соло:            A                        C#/G# 
|-------------------------|------------------------|
|-------------------------|------------------------|
|*-----7--6-------7--6----|-----6----------6-------|
|*--7---------------------|--7-----9----6-----9----|
|--------------7----------|------------------------|
|-------------------------|------------------------|

   F#m                      D 
|------------------------|-------------------------|
|------------------------|-------------------------|
|-----7--6-------7--6----|-----9--7-------9--7----*|
|--7---------------------|--7----------7----------*|
|-------------9----------|-------------------------|
|------------------------|-------------------------|

A    C#  F#m       D 
Автобусы давно ушли все в парк
Ты напеваешь "пачку сигарет"
И тают звезды на твоих щеках
И светофоры зажигают снег

Бас-проигрыш:    A|--0--0--0--0--0--0--5--4--|--------------------------|
E|--------------------------|--2--2--2--2--0--0--0--0--|

|--0--0--0--0--0--0--5--4--|--------------------------|
|--------------------------|--2--2--2--2--0--0--0--0--|

   A  Esus2 F#m  Dsus2 
И ветер и ветер и ветер
  A  Esus2 Dsus2 Esus2 
Рвет все небо в клочья
В семнадцать в семнадцать
Покоя нет ни днем ни ночью

Ещё песни с аккордами исполнителя/группы «Ber-Linn»

Внимание! Сайт больше обновляться не будет. Смотрите новую версию сайта на https://guitar-chords.ru
 
 
Последние добавленные подборы