Down For Life
Biohazard
Biohazard Down For Life
Добавлено: — , Просмотров: 1332 (+0)

  Добавить в избранное

"State of the World Address"
Down For Life

          I (4x)               II (6x)
E-|----------------------|----------------------------|
B-|----------------------|----------------------------|
G-|----------------------|----------------------------|
D-|-2------3-----2--5--8-|-2-2-2-2--2-3-2-5-2--2-5-8--|
A-|-0--1--5--0--3--6-|-0-0-0-0--0-1-0-3-0--0-3-6--|
E-|-----------3----------|----------------------------|

                III (2x)                           IV (6x)
E-|-------------------------------------------|------------------|
B-|-------------------------------------------|----3x------------|
G-|-------------------------------------------|----/-\-----------|
D-|-9-7-----10-9-7----10--9-7---10--9-7-------|---/---\----------|
A-|-7-5--8--8--7-5--8--8--7-5-8--8--7-5-8-7-5-|--2--8-8-then-3-3-|
E-|------6----------6---------6---------6-5-3-|--0--6-6------1-1-|

SONG STRUCTURE:
I,II,III,II,III,IV,I,II,II

Ещё песни с аккордами исполнителя/группы «Biohazard»

Внимание! Сайт больше обновляться не будет. Смотрите новую версию сайта на https://guitar-chords.ru
 
 
Последние добавленные подборы