Human Animal
Biohazard
Biohazard Human Animal
Добавлено: — , Просмотров: 1364 (+2)

  Добавить в избранное

"State of the world address"
Human Animal

E-|-------------------------------------------------|-------------------------|
B-|-------------------------------------------------|-------------------------|
G-|-------------------------------------------------|-------------------------|
D-|-------------------------------------------------|-------------------------|
A-|-2-2--2-2---8--7--2-2--2-2--8--7--2-2--2-2--8--7-|-------------------------|
E-|-0-0--0-0---6--5--0-0--0-0--6--5--0-0--0-0--6--5-|-------------------------|

E-|-------------|-----------------|-------------------------------------------|
B-|-------------|-----------------|-------------------------------------------|
G-|-------------|-----------------|-------------------------------------------|
D-|-------------|--2--8---2--3----|-------------------------------------------|
A-|--5-5-5--6-3-|--0--6---0--1--5-|-2--4-5--2--4-5--8-7---2--4-5--2-2-2-2-----|
E-|--3-3-3--4-1-|---------------3-|-0--2-3--0--2-3--6-5---0--2-3--0-0-0-0-----|

Ещё песни с аккордами исполнителя/группы «Biohazard»

Внимание! Сайт больше обновляться не будет. Смотрите новую версию сайта на https://guitar-chords.ru
 
 
Последние добавленные подборы