Victory
Biohazard
Biohazard Victory
Добавлено: — , Просмотров: 1240 (+0)

  Добавить в избранное

Victory

         I (4x)        II (8x)
e:-------|-----------------------------|
B:-------|-----------------------------|
G:-------|-----------------------------|
D:-------|-----------------------------|
A:2-2-2--|-2-2-2--5-5-5--3-3-3--4-4-4--|
E:0-0-0--|-0-0-0--3-3-3--1-1-1--2-2-2--|
                III (1x)
e:------------------------------------------------
B:------------------------------------------------
G:------------------------------------------------
D:---4-3---2---4-3--------------------------------
A:-2-2-1---0-2-2-1--------------------------------
E:-0---------0------------------------------------
                         still III
-------------------------------------|
-------------------------------------|
-------------------------------------|
-2-2-3-3-2-2-3-3-2---4-3--2---4-3--2-|
-0-0-1-1-0-0-1-1-0-2-2-1--0-2-2-1--0-|
-------------------0--------0--------|
                         IV (4x)
e:----------------------------------------------|
B:----------------------------------------------|
G:-----6-5-5---4-4---2-2------6-5-5---4-4---2---|
D:-4-4-4-3-3-4-2-2-4-0-0--4-4-4-3-3-4-2-2-4-0-3-|
A:-2-2-------2-----2------2-2-------2-----2---1-|
E:----------------------------------------------|

SONG STRUCTURE:
I,II,III,II,III,IV,I,II,I

Ещё песни с аккордами исполнителя/группы «Biohazard»

Внимание! Сайт больше обновляться не будет. Смотрите новую версию сайта на https://guitar-chords.ru
 
 
Последние добавленные подборы