What makes us tick
Biohazard
Biohazard What makes us tick
Добавлено: — , Просмотров: 1219 (+1)

  Добавить в избранное

"State of the world address"
What makes us tick?

        I (3x)           II                   III (2x)
E-|-------------------|-------|------------------------------------------|
B-|-------------------|-------|------------------------------------------|
G-|-------------------|-------|------------------------------------------|
D-|--9-9-10-9-9--10-7-|-------|------------------------------------------|
A-|--7-7-8--7-7--8--5-|-7-5-7-|--2--5--7--2--5--3--2--5--7--8--8--7--3---|
E-|-------------------|-5-3-5-|--0--3--5--0--3--1--0--3--5--6--6--5--1---|

                          IV till end.
E-|------------------------------------------------------------------------|
B-|------------------------------------------------------------------------|
G-|------------------------------------------------------------------------|
D-|-2-x-x-x--8--5--7--8---2-x-x-x--8--5--7----2-x-x-x-8-5-7-8-7-5-7-8-8-3--|
A-|-0-x-x-x--6--3--5--6---0-x-x-x--6--3--5----0-x-x-x-6-3-5-6-5-3-5-6-6-1--|
E-|------------------------------------------------------------------------|

SONG STRUCTURE:
I,II,I,II,III,I,II,I,II,III,IV

Ещё песни с аккордами исполнителя/группы «Biohazard»

Внимание! Сайт больше обновляться не будет. Смотрите новую версию сайта на https://guitar-chords.ru
 
 
Последние добавленные подборы