Breakout
Black Sabbath
Black Sabbath Breakout
Добавлено: — , Просмотров: 979 (+1)

  Добавить в избранное

Never Say Die (1978)
Breakout

|----------------------------------------------------------
|----------------------------------------------------------
|----------------------------------------------------------
|-----------2--------------------------2-------------------
|--2--4--5-------2------------2--4--5-------2--------------
|----------------0--------------------------0--------------

|--------------------------------
|--------------------------------
|--------------------------------
|----------2----------7--5~~-----
|-2--4--5-------2----------------
|---------------0----------------

|----------------------------------------------------------
|----------------------------------------------------------
|----------------------------------------------------------
|------------2--5--4-----7--4-------------------2----------
|---2--4--5-----------5--------5--7----2--4--5-------2-----
|----------------------------------------------------0-----

Ещё песни с аккордами исполнителя/группы «Black Sabbath»

Внимание! Сайт больше обновляться не будет. Смотрите новую версию сайта на https://guitar-chords.ru
 
 
Последние добавленные подборы