Dirty Women
Black Sabbath
Black Sabbath Dirty Women
Добавлено: — , Просмотров: 1477 (+1)

  Добавить в избранное

Technical Ecstacy (1976)
Dirty Women

Bass

|--------------------------------------------
|--------------------------------------------
|--------------------------------/8--7-------
|--5----3--------(3)/5mute--------------8----
"I need a lady to help me..."
|----------------------------------------------------------
|----------------------------------------------------------
|-5-5-5-5-3---3---5-5-5-5-3---3---5-5-5-5-3---3------------
|-----------5---5-----------5---5-----------5---5----------
Interlude:
|------------------------------------------------------------
|-----------8--------------------------------------5-------5-
|------7---------8------8---8------5---(3)h5-----5---5---5---
|-10------------------6---6----3-------------3---------3-----

|-------------------------------------------------------------------
|--------------------------------------------------10h12--10--------
|-----10---(8)h10---------7-8-7------------------------------12-10-
|-8---------------8-----8-------8---10---8h10--8h10-----------------
w/ solo:
|-----------------------------------------------------------------------------
|-----------------------------------------------------------------------------
|-5-5-3-5------------1-1-1-3-3-3--3---3-5-5-3-5----------1-1-1-3-3-3--3---3-
|------------1-3-1-3-----------------5-------------1-3-1-3----------------5---
Double Time:
|----------------------------------------------------------
|-12--------------------7---10-----------------5-----------
|----12----------7-8-10--------10--------5-6-8-------------
|-------10--8-10------------------8--6-8-------------------

|----------------------------------------
|-----------5h7p5h7-----------5h7p5h7----
|-------5h7---------------5h7------------
|-5--5--------------5--5-----------------

|-----------------------------
|-----------------------------
|----------5-5-5-5-5-5-5-5----
|-5--5------------------------

|-----------------------------------------------------------------------------
|-----------------------------------------------------------------------------
|-5-5-3-5------------1-1-1-3-3-3--3---3-5-5-3-5----------1-1-1-3-3-3--3---3-
|------------1-3-1-3-----------------5-------------1-3-1-3----------------5---
Slow:
|---------------------------------------------------------------
|---------------------------------------------------------------
|------------------------------------------10-9-10-9-10-9-10-12-
|-10-------8h10-8h10-8---8-8-8-7---7-7-7------------------------

Ещё песни с аккордами исполнителя/группы «Black Sabbath»

Внимание! Сайт больше обновляться не будет. Смотрите новую версию сайта на https://guitar-chords.ru
 
 
Последние добавленные подборы