Hand Of Doom
Black Sabbath
Black Sabbath Hand Of Doom
Добавлено: — , Просмотров: 925 (+0)

  Добавить в избранное

Paranoid (1970)
Hand Of Doom

Bass

what you gonna do...
||----------------------------||
||----------------------------||
||--3-3/5-5-5--5-5-5----------||
||---------------------3-4-5--||
       2x riff 1a
||-----------------------------------------||
||-----------------------------------------||
||-------------------------------------6-5-||
||---8-8-8--8-8-8--8-8-8--8-8-8--6--6------||

       2x riff1b
||----------------------------------------|| the guitar is doing the
||----------------------------------------|| riff, but the bass
||----------------------------------5-6-8-|| changes it up, so play the
||---8-8-8--8-8-8--8-8-8--8-8-8--6--------|| above riff 2x and this one 2x
       you..you know you must be blind...
||------------------10-10-10-10-8-----|| listen to bass..it does
||--------------------------------10--|| various things
||------6-5----8-6--------------------||
||---8-------6------------------------||
  3x                    your havin a good time...
||--------------------||--------------------||--------------||
||--------------------||--------------------||--------------||
||--3---6-------------||--------------------||riff-1a-and-b-||
||----------1---3-----||-9-8-8-8-8-8-8-8-8--||------------- ||
                                        back to slow riff
||--solo----------||-------------||-----------------------||
||-notes-from-----||-------------||-----------------------||
||a-D-major-scale-||---3---1-----||-3-3/5-5-5-5-5-5-------||
||----------------||-----------3-||-----------------3-4-5-||
/=slide up... piece the song together.. it's not that diffucult
but look out at some parts.

Ещё песни с аккордами исполнителя/группы «Black Sabbath»

Внимание! Сайт больше обновляться не будет. Смотрите новую версию сайта на https://guitar-chords.ru
 
 
Последние добавленные подборы