Looking For Today
Black Sabbath
Black Sabbath Looking For Today
Добавлено: — , Просмотров: 1083 (+1)

  Добавить в избранное

Sabbath, Bloody Sabbath (1973)
Looking For Today

Bass

|---------------------------------------------7-5----------
|-----7--7-5-4-------4---4-5-----7--7-5-4---------7-5------
|-0-0----------4/5-5---5-----0-0----------5-5--------------
|----------------------------------------------------------

|----------------------------------------------7-5---------
|-----7----5-4-------4---4-5-----7--7-5-4----------7-5-----
|-0-0----0-----4/5-5---5-----0-0----------5--5-------------
|----------------------------------------------------------

Chorus:        |-----------------------------5----------5-----------------
|--------------------5---7--7---7-5-7--7---7-5-7-5---------
|-7--7--7-5-7-7--7-5---7-----------------------------------
|----------------------------------------------------------

|--------------------5-3-----------------------------------
|-5--5-5---3-5-5-5-3-----5-3-7-7-7-7-7-7-7---5-------------
|--------5---------------------------------7---5-7---------
|----------------------------------------------------------

Bridge:        |----------------------------------------------------------
|----------------------------------------------------------
|-5--5----------------5--5-5--------------------------5----
|-------8---7---6-6-8--------8-8-8-7-7-7-7-6--5-6-5-7------
                         use different variation of the above

Ещё песни с аккордами исполнителя/группы «Black Sabbath»

Внимание! Сайт больше обновляться не будет. Смотрите новую версию сайта на https://guitar-chords.ru
 
 
Последние добавленные подборы