Supernaut
Black Sabbath
Black Sabbath Supernaut
Добавлено: — , Просмотров: 1126 (+0)

  Добавить в избранное

Volume 4 (1972)
Supernaut

Bass
Tune-down 1 1/2 steps low to high (C# F# B E)

Main Riff
||---------------------------------------------------------------
||---/14--------------------------------------------7-----------
||----------5/7--75--0--5-7-7----5/7--75-----5h7-5----5/7--75-
||------------------------------------------7--------------------
                                I want to reach out and touch the
------------------------------||----------------------7---7------
--------/5-7------------------||------------------------7---7----
----5-7------7-7-5------------||-7---7-7-/15--/17-------------5-5
--7----------------7-5-3-5-3--||-------------0----0-0------------
sky...Geezer does alot of stuff(again)so groove around this
--7-7------------------------/7--7-----7-7-7-7-9-7-----||--------
-------------------------------------7-----------------||--------
------5-5--7--7-/15--/17-----------5---------------5---||-7-7----
--------------------0----0-0---------------------------||--------
 When bass follows drums.     Drum groove  Guitar and bass back
----------------------------||-----------||-9--9-7---7-7-7-7-7---
------------------------12-||-----------||--------7-------------
-7-7------7-7-------7-7-----||-----------||--------------------5-
----------------------------||-----------||----------------------

------7-9---------------------9p7--7-7---7-77h9p7-7------||------
---------------------------------------7------------7----||------
-5-5-------7--7-/15--/17------------------------------5--||------
--------------------0----0-0-----------------------------||------
For the solos do the main riff... have some fun with this song,
there's alot of room to fill in the song so just bust out some
killer fills. /=slide up     =slide down   h=hammer-on p=pulloff

Ещё песни с аккордами исполнителя/группы «Black Sabbath»

Внимание! Сайт больше обновляться не будет. Смотрите новую версию сайта на https://guitar-chords.ru
 
 
Последние добавленные подборы