Under The Sun
Black Sabbath
Black Sabbath Under The Sun
Добавлено: — , Просмотров: 1036 (+0)

  Добавить в избранное

Volume 4 (1972)
Under The Sun

Bass

tune down 1 12 steps (C# F# B E)
  Intro                                           Well I don't
||-----------------------------------------------||-----------
||-----------------------------------------------||-----------
||----------2--1---1-1--5--4---4-4--4-3--3-2--2--||-7--7-9--9-
||-0---0-0---------------------------------------||-----------
want no demon... Every day just comes and... People riding
---------------||---------------------------|-----------------
---------------||-5h7--5h7--5h7---5h7--5-5--|-7h9--7h9--7h9---
-10p9p7-7-9p7--||---------------------------|-----------------
---------------||---------------------------|-----------------
their...
-----------|-------------------------------|-----------------
-7h9--7-7--|-9h11--9h11--9h11---9h11--9-9--|-10h12--10h12--10
-----------|-------------------------------|-----------------
-----------|-------------------------------|-----------------
                      Outro
--------------------||---------------------------------------
h12---10h12--10-10--||-9--------------9-----------------9----
--------------------||---10-9-7--7--7---10-9--------------10-
--------------------||-----------------------10--10--10------

-----------------------------||------||h=hammer-on
-----------------------------||------||p=pull-off
-9---------------------------||--7--||=slide down
---8--8--8-8-8h10-8-7--7--7--||------||

Ещё песни с аккордами исполнителя/группы «Black Sabbath»

Внимание! Сайт больше обновляться не будет. Смотрите новую версию сайта на https://guitar-chords.ru
 
 
Последние добавленные подборы