Mope
Bloodhound Gang
Bloodhound Gang Mope
Добавлено: — , Просмотров: 1154 (+3)

  Добавить в избранное

Mope

no guitar part during the verses, but if you want,
you could play quarter notes on the open low Eb string
during the chorus, do this four times:
Eb:---------------|-------------|
Bb:---------------|-------------|
Gb:----7-6-5-4----|-7-6-7--6----|
Db:----x-x-x-x----|-x-x-x--x----|
Ab:----5-4-3-2----|-5-4-5--4----|
Eb:---------------|-------------|
during the relax, don't do it part, do this twice
Eb:-7-----|-------|-------|------|
Bb:-8-----|-------|7------|------|
Gb:-7-----|-------|7------|------|
Db:-9-----|-------|7------|------|
Ab:-7-----|-------|7------|------|
Eb:-------|-------|-------|------|
and the video game-sounding part at the end is:
Eb:-9-----9------10-------10--------------9-10--
Bb:--9--------------10----------(x3)----9-------
Gb:----10---10---------11----11------10---------
Db:---------------------------------------------
Ab:---------------------------------------------
Eb:---------------------------------------------

Ещё песни с аккордами исполнителя/группы «Bloodhound Gang»

Внимание! Сайт больше обновляться не будет. Смотрите новую версию сайта на https://guitar-chords.ru
 
 
Последние добавленные подборы