Exodus
Bob Marley
Bob Marley Exodus
Добавлено: — , Просмотров: 1467 (+0)

  Добавить в избранное

*Legends*
Exodus

Lick 1:        G|--------------------------------
D|--------------------------------
A|-----------------3-3------------
E|--5--3--5--3--5------5---3-4-5--

Lick 2:        G|-------------------------------
D|-------------------------------
A|-----------------3-------------
E|--5--3--5--3--5-----5---3-4-5--

Lick 3:        G|---------------------------------
D|--------------------------5-6-7--
A|---------------------------------
E|--5--3--5--3--5--5--3--5---------

Lick 4:        G|-------------------------0-2--
D|----------------------0-------
A|--0-0-0--2--2--3--3-----------
E|------------------------------

Ещё песни с аккордами исполнителя/группы «Bob Marley»

Внимание! Сайт больше обновляться не будет. Смотрите новую версию сайта на https://guitar-chords.ru
 
 
Последние добавленные подборы