Who The Cap Fit
Bob Marley
Bob Marley Who The Cap Fit
Добавлено: — , Просмотров: 1215 (+0)

 
Добавить в избранное

Who The Cap Fit

----------------------------------------------------------------------
--------5-----------5--6--5-------------------------------------------
--3--6-------3--6------------6---------5--6--5------------------------
----------------------------------3--6----------6---3-----------------
2 paзa
chorus:
----------------------------------------------------------------------
-------8-------------------0--------------7-7--7-----------7-7--7-----
-----------8-------------6--------------5----------3--4--5----------5-
---6---------6--7--8---------8----6-------------------------------5---
thats all the song
the guitat cords are:
verse: Gm Cm Gm 
chorus: A# Cm D 

Ещё песни с аккордами исполнителя/группы «Bob Marley»

Внимание! Сайт больше обновляться не будет. Смотрите новую версию сайта на https://guitar-chords.ru
 
 
Последние добавленные подборы