Raise Your Hands
Bon Jovi
Bon Jovi Raise Your Hands
Добавлено: — , Просмотров: 1330 (+0)

  Добавить в избранное

Slippery When Wet (1986)
Raise Your Hands

This is just a small part to the song I worked out, which is used for most
of the song. I will post the rest when I figure it out.
                                                        | 3 Times
---------------------------------------------|---19P17P16--|-----5--------
---------------------------------------------|-------------|--------5`----
---------------------------------------------|-------------|---5----------
----7---------5--------4--------4H5P4--------|-------------|--------------
0000-----0000------0000-----0000-------5--0--|-------------|--------------
---------------------------------------------|-------------|--------------
                                                              A.H A.H
-3----2----------
-3----3----2-----
-0----2----2-----
-0----0----2-----
-2---------0-----
-3---------------

Ещё песни с аккордами исполнителя/группы «Bon Jovi»

Внимание! Сайт больше обновляться не будет. Смотрите новую версию сайта на https://guitar-chords.ru
 
 
Последние добавленные подборы