Unbreak My Heart
Braxton Toni
Braxton Toni Unbreak My Heart
Добавлено: — , Просмотров: 1947 (+0)

 
Добавить в избранное

Unbreak My Heart

(English Version)

Standard Tuning

Intro:        Bm -Em -A -F# -Bm -C -A 
|---------------------------------------------------------------|
|-----------------7-8--------7-----------------------------5s7--|
|--3-4-6-7--7-7-9------7-7-9----6--6~--4~--4~---3~---3-4-5------|
|---------------------------------------------------------------|
|---------------------------------------------------------------|
|---------------------------------------------------------------|

Verse 1:    (Arpegiate All Chords)
Bm             Em                 A                         F# 
Don't leave me in all this pain, don't leave me out in the rain.
Bm                   Em                        A                     F# 
Come back and bring back this smile, come and take these tears away.
   Bm                Em               A               F# 
I need your arms to hold me now, the nights are so unkind.
Bm                Em                       A 
Bring back those nights when I held you beside me.

F#           Dm    Gm                   C 
Chrous:        Un~Break my heart, say you'll love me again.
A           Dm                       Gm                            C 
Un~do this hurt you caused when you walked out the door and walked out of my life.
A            Dm          Gm             C 
Un~cry these tears, I've cried so many nights.
A            Dm         A        F# 
Un~Break my heart..... My heart.

Bm              Em              A                F# 
Verse 2:    Take back that sad word goodbye, bring back the joy to my life.
Bm              Em                              A               F# 
Don't leave me here with these tears, come and kiss this pain away.
   Bm               Em              A            F# 
I can't forget the day we laughed, time is so unkind.
Bm              Em                       A 
And life is so cruel without you here beside me.

F#           Dm    Gm                   C 
Chrous:        Un~Break my heart, say you'll love me again.
A           Dm                       Gm                            C 
Un~do this hurt you caused when you walked out the door and walked out of my life.
A            Dm          Gm             C 
Un~cry these tears, I've cried so many nights.
A            Dm         A 
Un~Break my heart.....

Solo:        |------------6-6s7-6-4-7--------------------------------------------4--6--6s7--|
|----------4--------------5--------7~--9--9s11--9-11-9s7--9s11s4---------------|
|----3-4-6-------------------6-8s9---------------------------------------------|
|--6---------------------------------------------------------------------------|
|------------------------------------------------------------------------------|
|------------------------------------------------------------------------------|

|----6-7-9-9s11-11s4-----7h9p7p6---6-----6-7-9-7-6-7s9-7--|
|--9-------------------9---------9---7--------------------|
|---------------------------------------------------------|
|---------------------------------------------------------|
|---------------------------------------------------------|
|---------------------------------------------------------|

Bm             Em                 A               F# 
Bridge:        Don't leave me in all this pain, don't leave me out in the rain.
Bm              Em                       A 
Bring back the nights when I held you beside me.

             Dm    Gm                   C 
Chrous:        Un~Break my heart, say you'll love me again.
A           Dm                       Gm                             C 
Un~do this hurt you caused when you walked out the door and walked out of my life.
A            Dm           Gm                  C 
Un~cry these tears, I've cried so many, many nights.
A 
Un~break my.......
Dm           Gm           C              A 
Un~break my heart oh baby come back and say that you love me.
Dm          Gm                   C           A 
Un~break my heart sweet darling, without you I just can't go on.
Dm                    Gm                    C                    A 
Say that you love me, say that you love me, tell me you love me, un~break my.
Dm                    Gm                    C                    A 
Say that you love me, say that you love me, tell me you love me, un~break my.
Dm                    Gm                    C                    A 
Say that you love me, say that you love me, tell me you love me, un~break my.
Dm                    Gm                    C                    A 
Say that you love me, say that you love me, tell me you love me, un~break my....(Fade Out)
Внимание! Сайт больше обновляться не будет. Смотрите новую версию сайта на https://guitar-chords.ru
 
 
Последние добавленные подборы