My Town
Buck-O-Nine
Buck-O-Nine My Town
Добавлено: — , Просмотров: 1259 (+0)

 
Добавить в избранное

My Town

Intro: Play twice
   A                   E                   F#m               A 
e:--------------------------------------------------------------------
B:--------------------------------------------------------------------
G:--------------------------------------------------------------------
D:--------------------------------------------------------------------
A:-7-7-7-7-7-7-7---7-7-7-5-5-5-4--7-7-7-5-5-5-4----4-4-4-4-4-4-5------
E:-5-5-5-5-5-5-5---0-0-0-0-0-0-0--2-2-2-2-2-2-2----5-5-5-5-5-5-5------

Main Riff: Play several times
     A                        E                    F#m            D 
A 
e:--x-5-x-5-x-5-x-5--x-------------------------------------x-5-x5x5-5-
B:--x-5-x 5-x-5-x-5--x-9-x-9x9-x9---x-10-10-10---x-7-7-7---x-5x-5x5-5-
G:--x-6-x-6-x-6-x-6--x-9-x-9x9-x9---x-11-11-11---x-7-7-7---x-6-x6x6-6-
D:---------------------9-x-9x9-x9---x11--11-11---x-7-7-7--------------
A:--------------------------------------------------------------------
E:--------------------------------------------------------------------

Chorus: (in a ska beat)
D                             A 
My town, my street...Give me peace of mind that cant be beat yeah...

D                             E                      D             Dbm 
Bm 
My town, my street...Give me peace of mind that cant be beat,
                               E                      D             Dbm 
Bm 
                               Give me peace of mind that cant be beat

Ещё песни с аккордами исполнителя/группы «Buck-O-Nine»

Внимание! Сайт больше обновляться не будет. Смотрите новую версию сайта на https://guitar-chords.ru
 
 
Последние добавленные подборы