Nineteen
Buck-O-Nine
Buck-O-Nine Nineteen
Добавлено: — , Просмотров: 1392 (+0)

  Добавить в избранное

Nineteen

play this twice:
e:-------------------------------------------------------
B:-------------------------------------------------------
G:-----------9-9-9-9------6-6-----6-6--------------------
D:-7-7-7-7-7-9-9-9-9--6-6-6-6-6-6-6-6--------------------
A:-7-7-7-7-7-7-7-7-7--6-6-4-4-6-6-4-4--------------------
E:-5-5-5-5-5----------4-4-----4-4------------------------
then: p.m......
e:-------------------------------------------------------
B:-------------------------------------------------------
G:-------------------------------------------------------
D:----7-7-7-7--9-9-9-------------------------------------
A:----7-7-7-7--9-9-9-------------------------------------
E:----4-4-4-4--7-7-7-------------------------------------

   Not long ago........(clean ska upstrokes whatever)
e:--5-5-5--4-4-4--2-2-2-2--5-5-5-4-4-4-2-2-2-------------
B:--5-5-5--5-5-5--3-3-3-3--5-5-5-5-5-5-3-3-3-------------
G:--6-6-6--4-4-4--2-2-2-2--6-6-6-4-4-4-2-2-2-------------
D:-------------------------------------------------------
A:-------------------------------------------------------
E:-------------------------------------------------------

CHORUS:
anything is possible  anything and everything anything...
e:-------------------------------------------------------
B:-------------------------------------------------------
G:-------------------------9-----------------------------
D:--4-----------7----------9----------------------9------
A:--4-----------7----------7----------------------9------
E:--2-----------5---------------------------------7------

  is possible (pm)
e:-------------------------------------------------------
B:-------------------------------------------------------
G:-------------------------------------------------------
D:--7-7-7--9-9-9-----------------------------------------
A:--7-7-7--9-9-9-----------------------------------------
E:--4-4-4--7-7-7-----------------------------------------

Bridge:
e:-------------------------------------------------------
B:-------------------------------------------------------
G:--------9-9--7-7-9-9-----------------------------------
D:---7-7--9-9--7-7-9-9-----------------------------------
A:---7-7--7-7--5-5-7-7-----------------------------------
E:---5-5-------------------------------------------------

  play this like 2 times
e:-------------------------------------------------------
B:-------------------------------------------------------
G:--------9-9-9-7-7-7-7----------------------------------
D:--7-7-7-9-9-9-7-7-7-7----------------------------------
A:--7-7-7-7-7-7-5-5-5-5----------------------------------
E:--5-5-5------------------------------------------------

then beggining part is played at end

Ещё песни с аккордами исполнителя/группы «Buck-O-Nine»

Внимание! Сайт больше обновляться не будет. Смотрите новую версию сайта на https://guitar-chords.ru
 
 
Последние добавленные подборы