Alone In A Crowd
Catch 22
Catch 22 Alone In A Crowd
Добавлено: — , Просмотров: 1403 (+0)

 
Добавить в избранное

Alone In A Crowd

Intro:        e|---------------------------------|
B|-----1---3-------------1---------|
G|-------0---0-9---10------0-4---3-|
D|---------------------------------|
A|-----3---2---7---8-----3---2---1-|
E|---------------------------------|

C G 
Cemetery break the stone
C F 
Mom was right, shoulda stayed at home
F Fm C G 
Seems like all the good old days are gone
C G 
Back and forth and side to side
C F 
A lonely boy, a mans disguise
F Fm C G 
Another silhouette against the sky
Bm C Am Bm 
Overcome the obstacle of animosity
Bm C Am G 
Take me to my old back yard, security and family

C Dm F G 
When all is said and all is done I? m not the only one
C Dm F G 
When all is said and all is done

C G 
Take it all for granted,
C F 
I don? t mind its all been handed down to me
F Fm C G 
But ill give it back someday
C G 
Once upon a time a tale,
C F 
began on a television
F Fm C G 
now I watch it slowly spin away
Bm C Am Bm 
Overcome the obstacle of animosity
Bm C Am G 
Take me to my old back yard, security and family

C Dm F G 
When all is said and all is done I? m not the only one
C Dm F G 
When all is said and all is done

Solo:
1 Guitar plays chorus and other plays this
e|-----------------------------------------------------------12-13-12-10-----|
B|-12-13-12-10-15-13-12--13-13-12-13-12-13-15-15-13-10-------------------13--|
G|----------------------------------------------------12--12-----------------|
D|---------------------------------------------------------------------------|
A|---------------------------------------------------------------------------|
E|---------------------------------------------------------------------------|

C G 
Clean the slate, turn the page
C F 
Lonely boy has paved the way
F Fm C G 
Mom was right, I should have stayed at home

C Dm F G 
When all is said and all is done I? m not the only one
C Dm F G 
When all is said and all is done I? m not the only one
C Dm F G 
When all is said and all is done I? m not the only one
C Dm F Fm C 
When all is said and all is done seems like all the good old days are gone

Ещё песни с аккордами исполнителя/группы «Catch 22»

Внимание! Сайт больше обновляться не будет. Смотрите новую версию сайта на https://guitar-chords.ru
 
 
Последние добавленные подборы