Дальше - тишина
Catharsis
CatharsisДальше - тишина Прислать видеоурок
Catharsis Дальше - тишина
Добавлено: — , Просмотров: 2224 (+0)

 
Добавить в избранное

Дальше - тишина
(Mission/Пушкина)

    Fm#             D 
|---2--2---2--0(2)--2--2--2--0(2)-|
|---2--2------2-----3--3-----3----|
|---2--2------2-----2--2-----2----|
|---4--4--------------------------|
|---4--4--------------------------|
|---2--2--------------------------|

    Fm# 
(1)
        Я ошибся
 D                 Fm#  D 
Разделяя Жизнь и Смерть,
     Fm# 
Даже небу
 D                   Fm# 
Грань непросто разглядеть,
D            E          D E 
Даже ангелы правды не знают,
        D            E          Fm# 
Днем и ночью - им летать в пустоте!

 A          E 
Припев:        Дальше тишина...
Hm             Fm# E 
Остров Всех Блаженных,
     A       E 
Сердца глубина,
      Hm      Fm# 
Преклони... колени.

(2)
        Сад завьюжен
Солнца летнего не ждет,
Кто мне нужен?
Та, что рядом, пусть уйдет,
Мое имя пусть возьмет и в ладонях
До поющей воды донесет.
Вот и все!

Припев:        Дальше тишина...
Остров Всех Блаженных,
Сердца глубина,
Преклони... колени.

Даже ангелы правды не знают,
Днем и ночью - им летать в пустоте!

Припев:        Дальше тишина...
Остров Всех Блаженных,
Сердца глубина,
Преклони... колени.

Кто мне нужен?

Аккорды:     Fm#   D    E    A    Hm 
|-2-||-2-||-0-||-0-||-2-|
|-2-||-3-||-0-||-2-||-3-|
|-2-||-2-||-1-||-2-||-4-|
|-4-||-0-||-2-||-2-||-4-|
|-4-||-0-||-2-||-0-||-2-|
|-2-||-0-||-0-||-0-||-2-|

Ещё песни с аккордами исполнителя/группы «Catharsis»

Внимание! Сайт больше обновляться не будет. Смотрите новую версию сайта на https://guitar-chords.ru
 
 
Последние добавленные подборы