Search and destroy
Iggy And The Stooges
Iggy And The Stooges Search and destroy
Добавлено: — , Просмотров: 1356 (+0)

  Добавить в избранное

(1973)
Search and destroy

Intro } x2
E---------------------------------------|
B---------------------------------------|
G--7--7-7--7-7-7-7---12-12-12-12---10---|
D--7--7-7--7-7-7-7---12-12-12-12---10---|
A--5--5-5--5-5-5-5---10-10-10-10----8---|
E---------------------------------------|

E-------------------------------------------------------------|
B-------------)(---------------------------)(-----------------|
G-----10-12-12-(12)--10----10------10-12-12-(12)--10-10-12-10-|
D--12-------------------12------12----------------------------|
A-------------------------------------------------------------|
E-------------------------------------------------------------|

Verse
E---------------------------------------|
B---------------------------------------|
G---------------------------------------|
D--7-7-7-7--7-7-7-7--5-5-5-5--5-5-5-5---|
A--5-5-5-5--5-5-5-5--3-3-3-3--3-3-3-3---|
E---------------------------------------|
P.M.------------------------------------|

Chorus
E------------------------------------------------|
B------------------------------------------------|
G--7-7--7---7--7-7-7--3--3-3-3--5-5-5-5-5-5-5-5--|
D--7-7--7---5--5-5-5--3--3-3-3--5-5-5-5-5-5-5-5--|
A--5-5--5---3--3-3-3--1--1-1-1--3-3-3-3-3-3-3-3--|
E------------------------------------------------|

After-Chorus Riff
E------------------------------------------------------------------------------|
B------------------------------------------------------------------------------|
G------------------------------------------------------------------------------|
D--4-/-5-5-5--5-5-5--5-5-5-5--5-5-5-5----------8--8-8--8-8--8-8-8-8-8-8-8-8--8-|
A--4-/-5-5-5--5-5-5--5-5-5-5--5-5-5-5-----3-5--8--8-8--8-8--8-8-8-8-8-8-8-8--8-|
E--2-/-3-3-3--3-3-3--3-3-3-3--3-3-3-3--3-5-----6--6-6--6-6--6-6-6-6-6-6-6-6--6-|

E------------1--1-1-1--1-1-1-1--1-1-1-1------------------------------------------|
B------------1--1-1-1--1-1-1-1--1-1-1-1------------------------------------------|
G------------2--2-2-2--2-2-2-2--2-2-2-2------------------------------------------|
D------------3--3-3-3--3-3-3-3--3-3-3-3------------7--7-7-7--7-7-7-7--7-7-7-7-7--|
A------6-8-----------------------------------1-3---7--7-7-7--7-7-7-7--7-7-7-7-7--|
E--6-8-----------------------------------1-3-------5--5-5-5--5-5-5-5--5-5-5-5-5--|

Ещё песни с аккордами исполнителя/группы «Iggy And The Stooges»

Внимание! Сайт больше обновляться не будет. Смотрите новую версию сайта на https://guitar-chords.ru
 
 
Последние добавленные подборы