You better run
Motorhead
Motorhead You better run
Добавлено: — , Просмотров: 2367 (+1)

  Добавить в избранное

You better run

Bass Tab

"Fun Riff"
E|--------------------------|
A|--7777777-----7777777-----|
D|----------5-7---------5-7-|
G|--------------------------|

Verse Riff (Lyrics are said during the sevens)
E|-----------------|
A|--777777-------7-|
D|---------5-7-5---|
G|-----------------|

Chorus Riff
E|------------8-7-|
A|--2-9-9-8-7-----|
D|----------------|
G|----------------|

This is modified from my original try, this is still not the
whole song.

Ещё песни с аккордами исполнителя/группы «Motorhead»

Внимание! Сайт больше обновляться не будет. Смотрите новую версию сайта на https://guitar-chords.ru
 
 
Последние добавленные подборы