Пачка сигарет
Кино
Кино Пачка сигарет 2013-11-12T00:00:00+04:00
Добавлено: — , Просмотров: 794 (+0)

 
Добавить в избранное

Вступление:    
e|------------7--5--------3-----------5-----------7--5---------|
b|------------------5--------5-----------7--------------5------|
g|-----4--5------------5--------5-7---------5--4-----------5--|
d|---------------------------------------------------------------|
a|---------------------------------------------------------------|
e|---------------------------------------------------------------|

e|--3-----------5--------------------------------------------------|
b|-----5-----------7-----------------------------------------------|
g|--------5--7--------5--4----------------------------------------|
d|-----------------------------------------------------------------|
a|-----------------------------------------------------------------|
e|-----------------------------------------------------------------|

Вступление+

e|--10-10-10--10-8-7-8-10--10-8-7-8-10--10-8-7-8-10//12-12-12------|
b|---------------------------------------------------------------------------|

e|--12-10-8-10-12--12-10-8-10-12---------------------------------------|
b|---------------------------------------------------------------------------|

 Em         Am          C          Ds    Em 
Я сижу и смотрю в чужое небо из чужого окна
       Am      C     Ds        Em 
И не вижу ни одной знакомой звезды.
     Am          C       Ds         Em 
Я ходил по всем дорогам и туда, и сюда,
     Am          C         Ds        Em 
Обернулся - и не смог разглядеть следы.

 Em      Am           C    Ds    Em 
Hо если есть в кармане пачка сигарет,
        Am             C           Ds        Em 
Значит все не так уж плохо на сегодняшний день.
    Am          C          Ds        Em 
И билет на самолет с серебристым крылом,
          Am         C      Ds      Em 
Что, взлетая, оставляет земле лишь тень.

И никто не хотел быть виноватым без вина,
И никто не хотел руками жар загребать,
А без музыки на миру смерть не красна,
А без музыки не хочется пропадать.

Hо если есть в кармане пачка сигарет,
Значит все не так уж плохо на сегодняшний день.
И билет на самолет с серебристым крылом,
Что, взлетая, оставляет земле лишь тень.

Ещё песни с аккордами исполнителя/группы «Кино»

Внимание! Сайт больше обновляться не будет. Смотрите новую версию сайта на https://guitar-chords.ru
 
 
Последние добавленные подборы