Boring
Blink 182
Blink 182 Boring
Добавлено: — , Просмотров: 1206 (+2)

  Добавить в избранное

Boring

                  play 8 times                    play twice
E||--------------------|--------------------||-----------------|
B||--------------------|--------------------||-----------------|
G||*-------------------|-------------------*||*------6------7--|
D||*-------------------|-------------------*||*--7---6---5--7--|
A||--0-4--0--5----4----|-----4-------5--4---||---7---4---5--5--|
E||--------------------|--3-------3---------||---5-------3-----|

 After 1st time pause for a sec              play 4 times
-----------------------||------------------------|------------||
-----------------------||------------------------|------------||
------6------7--------*||*-----------------------|-----------*||
--7---6---5--7--------*||*-----------------------|-----------*||
--7---4---5--5---------||---0----4---------5--5/-|--7--7--7---||
--5-------3------------||-------------3----------|------------||

                  play 4 times                     play twice
----------------------|----------------------||----------------|
----------------------|----------------------||----------------|
*---------------------|---------------------*||*------6------7-|
*---------------------|---------------------*||*--7---6---5--7-|
---0--4--0--5----4----|-----4-------5--4-----||---7---4---5--5-|
----------------------|--3-------3-----------||---5-------3----|

 after 1st time pause for a sec             play four times
----------------------||-----------------------|--------------||
----------------------||-----------------------|--------------||
------6------7-------*||*----------------------|-------------*||
--7---6---5--7-------*||*----------------------|-------------*||
--7---4---5--5--------||---0----4--------5--5/-|--7--7--7-----||
--5-------3-----------||-------------3---------|--------------||

              play 4 times
----------------------|-----------------------||---------------|
----------------------|-----------------------||---------------|
*---------------------|----------------------*||------6------7-|
*--7----6-------------|-------6--------------*||--7---6---5--7-|
-------------7--------|--5---------7----------||--7---4---5--5-|
----------------------|---------------5-------||--5-------3----|

--------||
--------||
--------||  weird kissing and horse sounds
--7--7--||
--7--7--||
--5--5--||  slide= /     repeat=  *
                                  *

Ещё песни с аккордами исполнителя/группы «Blink 182»

Внимание! Сайт больше обновляться не будет. Смотрите новую версию сайта на https://guitar-chords.ru
 
 
Последние добавленные подборы