I Miss You
Blink 182
Blink 182 I Miss You
Добавлено: — , Просмотров: 1441 (+0)

  Добавить в избранное

"Blink 182"
I Miss You

theres really only 2 riffs to this whole song

Intro/Verse/Interlude
e----------------
B----------------
G--4--4-8-8-8-8--
D--x--x-x-x-x-x--
A--2--2/6-6-6-6--
E-------7-7-7-7--

Chorus/Outro
e----------------------------------------------------------------------------
B--4--4--4-4-4-4-4-4--4-4-4-4-4-4--4-2--2-2-2--------------------------------
G--4--4--4-4-4-4-4-4--4-4-4-4-4-4--4-4--4-4-4--------------------------------
D--x--x--x-x-x-x-x-x--x-x-x-x-1-1--1-4--4-4-4-6--6--6-6-6-6-8-8--8-8-8-8-9-9-
A--2--2--2-2-2-2-4-4--4-4-4-4-----------------7--7--7-7-7-7-7-7--7-7-7-7-7-7-
E---------------------------------------------0--0--0-0-0-0-0-0--0-0-0-0-0-0-

Ещё песни с аккордами исполнителя/группы «Blink 182»

Внимание! Сайт больше обновляться не будет. Смотрите новую версию сайта на https://guitar-chords.ru
 
 
Последние добавленные подборы