When You Fucked Grandpa
Blink 182
Blink 182 When You Fucked Grandpa
Добавлено: — , Просмотров: 1443 (+0)

  Добавить в избранное

When You Fucked Grandpa

Verse:        E|-2--0--2--0-----------0---------|
B|---3--3--3--3---3---3---2---2-3-|
G|------------------0-------2-----|
D|-0--0--0--0---------------------|
A|------------------------0---0---|
E|----------------3---3-----------|

Chorus:        E|---------------------------------|
B|-3---3---3---3-----2---2---2---2-|
G|---0---0---0---0-----2---2---2---|
D|---------------------------------|
A|-------------------0---0---0---0-|
E|-3---3---3---3-------------------|

Ещё песни с аккордами исполнителя/группы «Blink 182»

Внимание! Сайт больше обновляться не будет. Смотрите новую версию сайта на https://guitar-chords.ru
 
 
Последние добавленные подборы